0
SECTION
2
HEADER
9
$INSUNITS
70
4
9
$ACADVER
1
AC1014
9
$HANDSEED
5
FFFF
0
ENDSEC
0
SECTION
2
TABLES
0
TABLE
2
VPORT
5
8
100
AcDbSymbolTable
0
ENDTAB
0
TABLE
2
LTYPE
5
5
100
AcDbSymbolTable
0
LTYPE
5
14
100
AcDbSymbolTableRecord
100
AcDbLinetypeTableRecord
2
BYBLOCK
70
0
0
LTYPE
5
15
100
AcDbSymbolTableRecord
100
AcDbLinetypeTableRecord
2
BYLAYER
70
0
0
ENDTAB
0
TABLE
2
LAYER
5
2
100
AcDbSymbolTable
70
2
0
LAYER
5
50
100
AcDbSymbolTableRecord
100
AcDbLayerTableRecord
2
0
70
0
6
CONTINUOUS
0
ENDTAB
0
TABLE
2
STYLE
5
3
100
AcDbSymbolTable
70
1
0
STYLE
5
11
100
AcDbSymbolTableRecord
100
AcDbTextStyleTableRecord
2
STANDARD
70
0
0
ENDTAB
0
TABLE
2
VIEW
5
6
100
AcDbSymbolTable
70
0
0
ENDTAB
0
TABLE
2
UCS
5
7
100
AcDbSymbolTable
70
0
0
ENDTAB
0
TABLE
2
APPID
5
9
100
AcDbSymbolTable
70
2
0
APPID
5
12
100
AcDbSymbolTableRecord
100
AcDbRegAppTableRecord
2
ACAD
70
0
0
ENDTAB
0
TABLE
2
DIMSTYLE
5
A
100
AcDbSymbolTable
70
1
0
ENDTAB
0
TABLE
2
BLOCK_RECORD
5
1
100
AcDbSymbolTable
70
1
0
BLOCK_RECORD
5
1F
100
AcDbSymbolTableRecord
100
AcDbBlockTableRecord
2
*MODEL_SPACE
0
BLOCK_RECORD
5
1B
100
AcDbSymbolTableRecord
100
AcDbBlockTableRecord
2
*PAPER_SPACE
0
ENDTAB
0
ENDSEC
0
SECTION
2
BLOCKS
0
BLOCK
5
20
100
AcDbEntity
100
AcDbBlockBegin
2
*MODEL_SPACE
0
ENDBLK
5
21
100
AcDbEntity
100
AcDbBlockEnd
0
BLOCK
5
1C
100
AcDbEntity
100
AcDbBlockBegin
2
*PAPER_SPACE
0
ENDBLK
5
1D
100
AcDbEntity
100
AcDbBlockEnd
0
ENDSEC
0
SECTION
2
ENTITIES
0
LINE
5
100
100
AcDbEntity
8
0
100
AcDbLine
10
-13.33309524416876
20
-290
30
0
11
7.1054273576010019e-14
21
-290
31
0
0
LINE
5
101
100
AcDbEntity
8
0
100
AcDbLine
10
-114.99999999999994
20
18.000000000000004
30
0
11
-114.99999999999994
21
4.6669047558307319
31
0
0
ARC
5
102
100
AcDbEntity
8
0
100
AcDbCircle
10
-414.33345237791571
20
-397.66654762208418
30
0
40
3.3000000000001495
210
0
220
0
230
1
100
AcDbArc
50
-134.99999999999932
51
44.999999999999304
0
LINE
5
103
100
AcDbEntity
8
0
100
AcDbLine
10
7.1054273576010019e-14
20
-290
30
0
11
7.1054273576010006e-14
21
-170
31
0
0
LINE
5
104
100
AcDbEntity
8
0
100
AcDbLine
10
-315
20
18.000000000000004
30
0
11
-430
21
17.999999999999975
31
0
0
LINE
5
105
100
AcDbEntity
8
0
100
AcDbLine
10
-430
20
-170
30
0
11
-430
21
-290
31
0
0
ARC
5
106
100
AcDbEntity
8
0
100
AcDbCircle
10
-414.33345237791571
20
-465.50733803066805
30
0
40
3.2999999999999985
210
0
220
0
230
1
100
AcDbArc
50
-45
51
45
0
LINE
5
107
100
AcDbEntity
8
0
100
AcDbLine
10
-416.66690475583118
20
-170
30
0
11
-430
21
-170
31
0
0
LINE
5
108
100
AcDbEntity
8
0
100
AcDbLine
10
-13.333095244168591
20
-463.17388565275252
30
0
11
0
21
-463.17388565275246
31
0
0
ARC
5
109
100
AcDbEntity
8
0
100
AcDbCircle
10
-15.666547622084437
20
-167.66654762208444
30
0
40
3.2999999999999923
210
0
220
0
230
1
100
AcDbArc
50
134.99999999999628
51
315.00000000000017
0
LINE
5
110
100
AcDbEntity
8
0
100
AcDbLine
10
-115.00000000000125
20
-583
30
0
11
-17.999999999999972
21
-583
31
0
0
LINE
5
111
100
AcDbEntity
8
0
100
AcDbLine
10
-17.999999999999972
20
-583
30
0
11
-18
21
-467.84079040858359
31
0
0
LINE
5
112
100
AcDbEntity
8
0
100
AcDbLine
10
-430
20
-290
30
0
11
-416.66690475583124
21
-290
31
0
0
LINE
5
113
100
AcDbEntity
8
0
100
AcDbLine
10
-412
20
-583
30
0
11
-315.00000000000119
21
-583
31
0
0
ARC
5
114
100
AcDbEntity
8
0
100
AcDbCircle
10
-15.666547622084437
20
-62.333452377915613
30
0
40
3.2999999999999985
210
0
220
-0
230
1
100
AcDbArc
50
45
51
225.0000000000035
0
LINE
5
115
100
AcDbEntity
8
0
100
AcDbLine
10
-411.99999999999994
20
-64.666904755831197
30
0
11
-411.99999999999994
21
-165.33309524416882
31
0
0
LINE
5
116
100
AcDbEntity
8
0
100
AcDbLine
10
-430
20
17.999999999999975
30
0
11
-430
21
-60
31
0
0
LINE
5
117
100
AcDbEntity
8
0
100
AcDbLine
10
-411.99999999999994
20
-294.6669047558313
30
0
11
-411.99999999999994
21
-395.33309524416848
31
0
0
ARC
5
118
100
AcDbEntity
8
0
100
AcDbCircle
10
-414.33345237791542
20
-62.333452377915606
30
0
40
3.2999999999999985
210
0
220
0
230
1
100
AcDbArc
50
-45.000000000001378
51
134.9999999999998
0
LINE
5
119
100
AcDbEntity
8
0
100
AcDbLine
10
-416.66690475583141
20
-399.99999999999994
30
0
11
-430
21
-400
31
0
0
LINE
5
120
100
AcDbEntity
8
0
100
AcDbLine
10
-412.00000000000011
20
-467.84079040858364
30
0
11
-412
21
-583
31
0
0
LINE
5
121
100
AcDbEntity
8
0
100
AcDbLine
10
-119.66690475583164
20
-1.9428902930940239e-15
30
0
11
-310.33309524416882
21
-3.6368013798875297e-14
31
0
0
LINE
5
122
100
AcDbEntity
8
0
100
AcDbLine
10
0
20
17.999999999999975
30
0
11
-114.99999999999994
21
18.000000000000004
31
0
0
LINE
5
123
100
AcDbEntity
8
0
100
AcDbLine
10
-315.00000000000119
20
-583
30
0
11
-315.00000000000119
21
-569.6669047558305
31
0
0
LINE
5
124
100
AcDbEntity
8
0
100
AcDbLine
10
-115.00000000000121
20
-569.66690475583118
30
0
11
-115.00000000000125
21
-583
31
0
0
ARC
5
125
100
AcDbEntity
8
0
100
AcDbCircle
10
-312.66654762208555
20
-567.33345237791525
30
0
40
3.299999999999923
210
0
220
-0
230
1
100
AcDbArc
50
44.999999999989534
51
224.99999999999511
0
LINE
5
126
100
AcDbEntity
8
0
100
AcDbLine
10
7.1054273576010006e-14
20
-170
30
0
11
-13.333095244168828
21
-170.00000000000003
31
0
0
LINE
5
127
100
AcDbEntity
8
0
100
AcDbLine
10
-430
20
-60
30
0
11
-416.66690475583101
21
-60
31
0
0
ARC
5
128
100
AcDbEntity
8
0
100
AcDbCircle
10
-117.33345237791681
20
-567.33345237791571
30
0
40
3.2999999999999736
210
0
220
0
230
1
100
AcDbArc
50
-44.999999999998415
51
134.99999999999949
0
LINE
5
129
100
AcDbEntity
8
0
100
AcDbLine
10
0
20
-463.17388565275246
30
0
11
7.1054273576010006e-14
21
-400
31
0
0
LINE
5
130
100
AcDbEntity
8
0
100
AcDbLine
10
-430
20
-463.17388565275223
30
0
11
-416.66690475583141
21
-463.17388565275246
31
0
0
ARC
5
131
100
AcDbEntity
8
0
100
AcDbCircle
10
-15.666547622084309
20
-397.66654762208418
30
0
40
3.3000000000000442
210
0
220
0
230
1
100
AcDbArc
50
134.99999999999872
51
314.99999999999727
0
ARC
5
132
100
AcDbEntity
8
0
100
AcDbCircle
10
-15.666547622084179
20
-465.50733803066805
30
0
40
3.2999999999999341
210
0
220
-0
230
1
100
AcDbArc
50
44.999999999999346
51
135.00000000000205
0
LINE
5
133
100
AcDbEntity
8
0
100
AcDbLine
10
-17.999999999999908
20
-395.33309524416848
30
0
11
-17.999999999999897
21
-294.66690475583135
31
0
0
LINE
5
134
100
AcDbEntity
8
0
100
AcDbLine
10
-17.999999999999893
20
-165.33309524416867
30
0
11
-17.999999999999904
21
-64.666904755831368
31
0
0
LINE
5
135
100
AcDbEntity
8
0
100
AcDbLine
10
-430
20
-400
30
0
11
-430
21
-463.17388565275223
31
0
0
ARC
5
136
100
AcDbEntity
8
0
100
AcDbCircle
10
-414.33345237791571
20
-465.50733803066805
30
0
40
3.3000000000001495
210
0
220
-0
230
1
100
AcDbArc
50
45
51
135.00000000000139
0
ARC
5
137
100
AcDbEntity
8
0
100
AcDbCircle
10
-414.33345237791542
20
-167.66654762208444
30
0
40
3.2999999999999985
210
0
220
0
230
1
100
AcDbArc
50
-135.00000000000244
51
45.000000000001748
0
LINE
5
138
100
AcDbEntity
8
0
100
AcDbLine
10
-315
20
4.6669047558312382
30
0
11
-315
21
18.000000000000004
31
0
0
LINE
5
139
100
AcDbEntity
8
0
100
AcDbLine
10
-310.33309524416956
20
-565.00000000000011
30
0
11
-119.66690475583236
21
-565.00000000000011
31
0
0
LINE
5
140
100
AcDbEntity
8
0
100
AcDbLine
10
-13.333095244168831
20
-60.000000000000007
30
0
11
7.1054273576010019e-14
21
-60
31
0
0
ARC
5
141
100
AcDbEntity
8
0
100
AcDbCircle
10
-312.66654762208441
20
2.3334523779156009
30
0
40
3.3000000000000251
210
0
220
0
230
1
100
AcDbArc
50
134.99999999999943
51
314.99999999999943
0
LINE
5
142
100
AcDbEntity
8
0
100
AcDbLine
10
7.1054273576010019e-14
20
-60
30
0
11
0
21
17.999999999999975
31
0
0
ARC
5
143
100
AcDbEntity
8
0
100
AcDbCircle
10
-117.33345237791561
20
2.3334523779151759
30
0
40
3.3000000000000105
210
0
220
0
230
1
100
AcDbArc
50
-135.00000000001052
51
44.9999999999987
0
LINE
5
144
100
AcDbEntity
8
0
100
AcDbLine
10
7.1054273576010006e-14
20
-400
30
0
11
-13.333095244168771
21
-399.99999999999994
31
0
0
ARC
5
145
100
AcDbEntity
8
0
100
AcDbCircle
10
-15.666547622084297
20
-292.33345237791576
30
0
40
3.3000000000000833
210
0
220
-0
230
1
100
AcDbArc
50
45.000000000002771
51
224.99999999999989
0
ARC
5
146
100
AcDbEntity
8
0
100
AcDbCircle
10
-15.666547622084179
20
-465.50733803066805
30
0
40
3.3000000000001299
210
0
220
0
230
1
100
AcDbArc
50
135.00000000000205
51
224.99999999999648
0
ARC
5
147
100
AcDbEntity
8
0
100
AcDbCircle
10
-414.33345237791571
20
-292.33345237791576
30
0
40
3.3000000000000491
210
0
220
0
230
1
100
AcDbArc
50
-44.999999999997208
51
134.99999999999721
0
LINE
5
148
100
AcDbEntity
8
0
100
AcDbLine
10
33.33309524416876
20
106.125
30
0
11
20
21
106.12499999999997
31
0
0
LINE
5
149
100
AcDbEntity
8
0
100
AcDbLine
10
134.99999999999881
20
512.5
30
0
11
135
21
499.16690475583141
31
0
0
LINE
5
150
100
AcDbEntity
8
0
100
AcDbLine
10
335.00000000000006
20
499.16690475583124
30
0
11
334.99999999999875
21
512.5
31
0
0
ARC
5
151
100
AcDbEntity
8
0
100
AcDbCircle
10
132.66654762208441
20
496.83345237791571
30
0
40
3.3000000000000234
210
0
220
0
230
1
100
AcDbArc
50
-134.99999999999861
51
45.000000000001393
0
LINE
5
152
100
AcDbEntity
8
0
100
AcDbLine
10
334.99999999999875
20
512.5
30
0
11
134.99999999999881
21
512.5
31
0
0
ARC
5
153
100
AcDbEntity
8
0
100
AcDbCircle
10
434.33345237791548
20
108.45845237791551
30
0
40
3.2999999999999985
210
0
220
0
230
1
100
AcDbArc
50
134.99999999999667
51
315.0000000000021
0
LINE
5
154
100
AcDbEntity
8
0
100
AcDbLine
10
121.60000000000004
20
50.000000000000036
30
0
11
173.52829581864285
21
344.5
31
0
0
LINE
5
155
100
AcDbEntity
8
0
100
AcDbLine
10
432
20
110.79190475583125
30
0
11
432
21
211.4580952441687
31
0
0
ARC
5
156
100
AcDbEntity
8
0
100
AcDbCircle
10
35.666547622084579
20
330.70845237791559
30
0
40
3.2999999999999479
210
0
220
0
230
1
100
AcDbArc
50
-134.99999999999932
51
45
0
LINE
5
157
100
AcDbEntity
8
0
100
AcDbLine
10
20
20
494.5
30
0
11
20
21
438.37500000000006
31
0
0
LINE
5
158
100
AcDbEntity
8
0
100
AcDbLine
10
432
20
333.04190475583118
30
0
11
432
21
433.70809524416876
31
0
0
LINE
5
159
100
AcDbEntity
8
0
100
AcDbLine
10
37.999999999999972
20
211.45809524416882
30
0
11
37.999999999999972
21
110.79190475583118
31
0
0
LINE
5
160
100
AcDbEntity
8
0
100
AcDbLine
10
436.66690475583118
20
438.37500000000006
30
0
11
450
21
438.37500000000006
31
0
0
LINE
5
161
100
AcDbEntity
8
0
100
AcDbLine
10
450
20
494.5
30
0
11
339.66690475583135
21
494.5
31
0
0
ARC
5
162
100
AcDbEntity
8
0
100
AcDbCircle
10
35.666547622084295
20
108.45845237791558
30
0
40
3.299999999999923
210
0
220
0
230
1
100
AcDbArc
50
-134.99999999999949
51
44.999999999999126
0
LINE
5
163
100
AcDbEntity
8
0
100
AcDbLine
10
450
20
328.37500000000006
30
0
11
436.66690475583107
21
328.37500000000006
31
0
0
ARC
5
164
100
AcDbEntity
8
0
100
AcDbCircle
10
35.666547622084579
20
213.79154762208441
30
0
40
3.2999999999998226
210
0
220
0
230
1
100
AcDbArc
50
-45.000000000002444
51
134.99999999999881
0
LINE
5
165
100
AcDbEntity
8
0
100
AcDbLine
10
450
20
216.12499999999997
30
0
11
450
21
328.37500000000006
31
0
0
LINE
5
166
100
AcDbEntity
8
0
100
AcDbLine
10
173.52829581864285
20
344.5
30
0
11
296.4717041813571
21
344.5
31
0
0
ARC
5
167
100
AcDbEntity
8
0
100
AcDbCircle
10
434.33345237791565
20
436.04154762208441
30
0
40
3.2999999999999985
210
0
220
-0
230
1
100
AcDbArc
50
45.000000000001393
51
225
0
ARC
5
168
100
AcDbEntity
8
0
100
AcDbCircle
10
35.666547622084295
20
436.04154762208452
30
0
40
3.2999999999999985
210
0
220
0
230
1
100
AcDbArc
50
-44.999999999999851
51
135.00000000000017
0
LINE
5
169
100
AcDbEntity
8
0
100
AcDbLine
10
20
20
328.37500000000006
30
0
11
20
21
216.12499999999997
31
0
0
LINE
5
170
100
AcDbEntity
8
0
100
AcDbLine
10
296.4717041813571
20
344.5
30
0
11
348.40000000000003
21
50
31
0
0
LINE
5
171
100
AcDbEntity
8
0
100
AcDbLine
10
37.999999999999901
20
433.70809524416893
30
0
11
38.000000000000114
21
333.04190475583113
31
0
0
LINE
5
172
100
AcDbEntity
8
0
100
AcDbLine
10
20
20
216.12499999999997
30
0
11
33.333095244169115
21
216.12499999999997
31
0
0
ARC
5
173
100
AcDbEntity
8
0
100
AcDbCircle
10
337.33345237791571
20
496.83345237791571
30
0
40
3.2999999999999479
210
0
220
0
230
1
100
AcDbArc
50
135.00000000000139
51
314.99999999999932
0
LINE
5
174
100
AcDbEntity
8
0
100
AcDbLine
10
33.333095244169044
20
328.375
30
0
11
20
21
328.37500000000006
31
0
0
LINE
5
175
100
AcDbEntity
8
0
100
AcDbLine
10
450
20
106.12499999999997
30
0
11
436.66690475583118
21
106.12499999999997
31
0
0
LINE
5
176
100
AcDbEntity
8
0
100
AcDbLine
10
450
20
438.37500000000006
30
0
11
450
21
494.5
31
0
0
LINE
5
177
100
AcDbEntity
8
0
100
AcDbLine
10
20
20
50.000000000000007
30
0
11
121.60000000000004
21
50.000000000000036
31
0
0
ARC
5
178
100
AcDbEntity
8
0
100
AcDbCircle
10
434.33345237791548
20
213.79154762208427
30
0
40
3.2999999999999479
210
0
220
-0
230
1
100
AcDbArc
50
45.000000000002444
51
225.00000000000105
0
LINE
5
179
100
AcDbEntity
8
0
100
AcDbLine
10
348.40000000000003
20
50
30
0
11
450
21
50
31
0
0
LINE
5
180
100
AcDbEntity
8
0
100
AcDbLine
10
20
20
106.12499999999997
30
0
11
20
21
50.000000000000007
31
0
0
LINE
5
181
100
AcDbEntity
8
0
100
AcDbLine
10
20
20
438.37500000000006
30
0
11
33.333095244168689
21
438.37500000000011
31
0
0
LINE
5
182
100
AcDbEntity
8
0
100
AcDbLine
10
130.33309524416882
20
494.5
30
0
11
20
21
494.5
31
0
0
LINE
5
183
100
AcDbEntity
8
0
100
AcDbLine
10
450
20
50
30
0
11
450
21
106.12499999999997
31
0
0
LINE
5
184
100
AcDbEntity
8
0
100
AcDbLine
10
436.66690475583096
20
216.12499999999994
30
0
11
450
21
216.12499999999997
31
0
0
ARC
5
185
100
AcDbEntity
8
0
100
AcDbCircle
10
434.33345237791548
20
330.70845237791559
30
0
40
3.2999999999998981
210
0
220
0
230
1
100
AcDbArc
50
134.99999999999861
51
315.00000000000068
0
LWPOLYLINE
5
186
100
AcDbEntity
8
0
100
AcDbPolyline
90
38
70
1
43
0.0
10
-495
20
106.12499999999997
10
-495
20
50
10
-596.59999999999991
20
50
10
-648.52829581864285
20
344.5
10
-771.47170418135715
20
344.5
10
-823.40000000000009
20
50
10
-925
20
50
10
-925
20
106.12499999999997
10
-911.66690475583118
20
106.12499999999997
42
0.99999999999999989
10
-907
20
110.79190475583118
10
-907
20
211.45809524416862
42
0.99999999999999989
10
-911.66690475583096
20
216.12499999999997
10
-925
20
216.12499999999997
10
-925
20
328.37500000000006
10
-911.66690475583118
20
328.37500000000023
42
0.99999999999999989
10
-907
20
333.0419047558313
10
-907
20
433.7080952441687
42
0.99999999999999989
10
-911.66690475583118
20
438.37500000000006
10
-925
20
438.37500000000006
10
-925
20
494.5
10
-814.66690475583141
20
494.5
42
0.99999999999999989
10
-810
20
499.1669047558313
10
-810
20
512.5
10
-610
20
512.5
10
-610
20
499.16690475583141
42
0.99999999999999989
10
-605.33309524416882
20
494.5
10
-495
20
494.5
10
-495
20
438.37500000000006
10
-508.33309524416876
20
438.37500000000006
42
0.99999999999999989
10
-512.99999999999977
20
433.70809524416899
10
-513.00000000000011
20
333.04190475583113
42
0.99999999999999989
10
-508.33309524416893
20
328.37500000000006
10
-495
20
328.37500000000006
10
-495
20
216.12499999999997
10
-508.33309524416893
20
216.12499999999997
42
0.99999999999999989
10
-513
20
211.4580952441689
10
-513
20
110.79190475583118
42
0.99999999999999989
10
-508.33309524416876
20
106.12499999999997
0
LWPOLYLINE
5
187
100
AcDbEntity
8
0
100
AcDbPolyline
90
28
70
1
43
0.0
10
-33.333095244169115
20
178.1172882034052
10
-20
20
178.1172882034052
10
-20
20
102.6252079407169
10
-450
20
102.6252079407169
10
-450.00000000000006
20
178.1172882034052
10
-436.66690475583067
20
178.11728820340562
42
0.99999999999999989
10
-432.00000000000011
20
182.78419295923726
10
-432
20
223.45038344757398
42
0.99999999999999989
10
-436.66690475583096
20
228.11728820340548
10
-450.00000000000006
20
228.11728820340534
10
-450.00000000000006
20
323.60936846609616
10
-436.66690475583158
20
323.60936846609661
42
0.99999999999999989
10
-432.00000000000011
20
328.27627322192768
10
-432.00000000000011
20
368.94246371026429
42
0.99999999999999989
10
-436.6669047558305
20
373.6093684660965
10
-450.00000000000006
20
373.6093684660965
10
-450
20
448.6093684660965
10
-19.999999999999929
20
448.6093684660965
10
-20
20
373.60936846609616
10
-33.333095244169328
20
373.60936846609661
42
0.99999999999999989
10
-37.999999999999972
20
368.94246371026441
10
-37.999999999999972
20
328.27627322192757
42
0.99999999999999989
10
-33.333095244168263
20
323.60936846609661
10
-20
20
323.60936846609616
10
-20
20
228.11728820340534
10
-33.333095244168689
20
228.11728820340534
42
0.99999999999999989
10
-37.999999999999901
20
223.45038344757427
10
-37.999999999999901
20
182.78419295923712
42
0.99999999999999989
0
LINE
5
188
100
AcDbEntity
8
0
100
AcDbLine
10
-500
20
-105.49999999999997
30
0
11
-555.33309524416882
21
-105.49999999999983
31
0
0
LINE
5
189
100
AcDbEntity
8
0
100
AcDbLine
10
-1019.1534367063812
20
229.97581016080687
30
0
11
-1022.6842416418592
21
250
31
0
0
LINE
5
190
100
AcDbEntity
8
0
100
AcDbLine
10
-1000.6164976459663
20
228.50547337269944
30
0
11
-1013.7470332140742
21
226.19020568088999
31
0
0
LINE
5
191
100
AcDbEntity
8
0
100
AcDbLine
10
-991.93408876261969
20
179.26508572208888
30
0
11
-1000.6164976459663
21
228.50547337269944
31
0
0
ARC
5
192
100
AcDbEntity
8
0
100
AcDbCircle
10
-1016.4502349602277
20
228.0830079208485
30
0
40
3.3000000000000274
210
0
220
0
230
1
100
AcDbArc
50
144.99999999999912
51
324.9999999999971
0
ARC
5
193
100
AcDbEntity
8
0
100
AcDbCircle
10
-1006.9574265706856
20
174.24661628412579
30
0
40
3.3000000000001171
210
0
220
-0
230
1
100
AcDbArc
50
54.999999999997044
51
234.99999999999648
0
LINE
5
194
100
AcDbEntity
8
0
100
AcDbLine
10
-993.88900210379416
20
86.69408151623422
30
0
11
-1008.8502288106442
21
171.54341453797218
31
0
0
ARC
5
195
100
AcDbEntity
8
0
100
AcDbCircle
10
-991.18580035764035
20
84.80127927627592
30
0
40
3.3000000000000105
210
0
220
0
230
1
100
AcDbArc
50
145.00000000000352
51
325.00000000000222
0
LINE
5
196
100
AcDbEntity
8
0
100
AcDbLine
10
-1005.0646243307269
20
176.94981803027946
30
0
11
-991.93408876261969
21
179.26508572208888
31
0
0
ARC
5
197
100
AcDbEntity
8
0
100
AcDbCircle
10
-981.69299196809891
20
30.964887639553282
30
0
40
3.3000000000000123
210
0
220
-0
230
1
100
AcDbArc
50
55.000000000001059
51
235.00000000000463
0
LINE
5
198
100
AcDbEntity
8
0
100
AcDbLine
10
-960.73668472052304
20
-101.32205333770713
30
0
11
-983.58579420805711
21
28.261685893399502
31
0
0
LINE
5
199
100
AcDbEntity
8
0
100
AcDbLine
10
-900
20
-87.499999999999929
30
0
11
-900
21
-100.8330952441694
31
0
0
LINE
5
200
100
AcDbEntity
8
0
100
AcDbLine
10
-975.35206304337919
20
85.223744728127073
30
0
11
-988.48259861148665
21
82.908477036317606
31
0
0
ARC
5
201
100
AcDbEntity
8
0
100
AcDbCircle
10
-957.87880088803468
20
-102.97205333770719
30
0
40
3.2999999999998568
210
0
220
0
230
1
100
AcDbArc
50
149.99999999999665
51
309.99999999999824
0
LINE
5
202
100
AcDbEntity
8
0
100
AcDbLine
10
-966.66965416003279
20
35.983357077516587
30
0
11
-975.35206304337919
21
85.223744728127073
31
0
0
ARC
5
203
100
AcDbEntity
8
0
100
AcDbCircle
10
-902.33345237791571
20
-103.16654762208508
30
0
40
3.2999999999998981
210
0
220
0
230
1
100
AcDbArc
50
-135.0000000000164
51
44.999999999999652
0
LINE
5
204
100
AcDbEntity
8
0
100
AcDbLine
10
-904.66690475583187
20
-105.4999999999999
30
0
11
-955.75760177606924
21
-105.49999999999982
31
0
0
LINE
5
205
100
AcDbEntity
8
0
100
AcDbLine
10
-979.80018972814048
20
33.668089385707027
30
0
11
-966.66965416003279
21
35.983357077516587
31
0
0
LINE
5
206
100
AcDbEntity
8
0
100
AcDbLine
10
-790
20
-87.499999999999929
30
0
11
-900
21
-87.499999999999929
31
0
0
ARC
5
207
100
AcDbEntity
8
0
100
AcDbCircle
10
-672.33345237791571
20
-103.16654762208429
30
0
40
3.2999999999999607
210
0
220
0
230
1
100
AcDbArc
50
-134.99999999999827
51
44.999999999997733
0
LINE
5
208
100
AcDbEntity
8
0
100
AcDbLine
10
-674.66690475583118
20
-105.49999999999991
30
0
11
-785.33309524416859
21
-105.4999999999999
31
0
0
LINE
5
209
100
AcDbEntity
8
0
100
AcDbLine
10
-560
20
-100.83309524416883
30
0
11
-560
21
-87.5
31
0
0
LINE
5
210
100
AcDbEntity
8
0
100
AcDbLine
10
-670
20
-87.5
30
0
11
-670
21
-100.83309524416877
31
0
0
ARC
5
211
100
AcDbEntity
8
0
100
AcDbCircle
10
-787.66654762208441
20
-103.16654762208458
30
0
40
3.2999999999998981
210
0
220
0
230
1
100
AcDbArc
50
135.00000000000071
51
315.00000000000608
0
LINE
5
212
100
AcDbEntity
8
0
100
AcDbLine
10
-560
20
-87.5
30
0
11
-670
21
-87.5
31
0
0
LINE
5
213
100
AcDbEntity
8
0
100
AcDbLine
10
-790
20
-100.83309524416904
30
0
11
-790
21
-87.499999999999929
31
0
0
ARC
5
214
100
AcDbEntity
8
0
100
AcDbCircle
10
-557.66654762208441
20
-103.16654762208429
30
0
40
3.2999999999998857
210
0
220
0
230
1
100
AcDbArc
50
135.00000000000156
51
315.00000000000068
0
LINE
5
215
100
AcDbEntity
8
0
100
AcDbLine
10
-1022.6842416418592
20
250
30
0
11
-1065
21
250
31
0
0
LINE
5
216
100
AcDbEntity
8
0
100
AcDbLine
10
-1065
20
250
30
0
11
-1065
21
-156.95809524416802
31
0
0
ARC
5
217
100
AcDbEntity
8
0
100
AcDbCircle
10
-1067.3334523779154
20
-159.29154762208407
30
0
40
3.3000000000000491
210
0
220
0
230
1
100
AcDbArc
50
-134.99999999999372
51
45.00000000000837
0
LINE
5
218
100
AcDbEntity
8
0
100
AcDbLine
10
-1083
20
-161.62499999999994
30
0
11
-1083
21
-271.62499999999994
31
0
0
LINE
5
219
100
AcDbEntity
8
0
100
AcDbLine
10
-1069.6669047558307
20
-161.62499999999994
30
0
11
-1083
21
-161.62499999999994
31
0
0
LINE
5
220
100
AcDbEntity
8
0
100
AcDbLine
10
-1065
20
-498.54190475583096
30
0
11
-1065
21
-550
31
0
0
LINE
5
221
100
AcDbEntity
8
0
100
AcDbLine
10
-601.59999999999991
20
-550
30
0
11
-500
21
-550
31
0
0
ARC
5
222
100
AcDbEntity
8
0
100
AcDbCircle
10
-1067.3334523779158
20
-496.20845237791536
30
0
40
3.2999999999999479
210
0
220
0
230
1
100
AcDbArc
50
-44.999999999997208
51
135.0000000000056
0
LINE
5
223
100
AcDbEntity
8
0
100
AcDbLine
10
-1083
20
-493.875
30
0
11
-1069.6669047558316
21
-493.875
31
0
0
LINE
5
224
100
AcDbEntity
8
0
100
AcDbLine
10
-680.51103717096566
20
-255.49999999999969
30
0
11
-601.59999999999991
21
-550
31
0
0
ARC
5
225
100
AcDbEntity
8
0
100
AcDbCircle
10
-497.66654762208441
20
-496.20845237791565
30
0
40
3.2999999999999985
210
0
220
-0
230
1
100
AcDbArc
50
45.000000000000696
51
225
0
LINE
5
226
100
AcDbEntity
8
0
100
AcDbLine
10
-963.40000000000009
20
-550
30
0
11
-884.48896282903524
21
-255.50000000000014
31
0
0
LINE
5
227
100
AcDbEntity
8
0
100
AcDbLine
10
-884.48896282903524
20
-255.50000000000014
30
0
11
-680.51103717096566
21
-255.49999999999969
31
0
0
LINE
5
228
100
AcDbEntity
8
0
100
AcDbLine
10
-1083
20
-383.875
30
0
11
-1083
21
-493.875
31
0
0
LINE
5
229
100
AcDbEntity
8
0
100
AcDbLine
10
-495.33309524416882
20
-493.875
30
0
11
-482
21
-493.875
31
0
0
LINE
5
230
100
AcDbEntity
8
0
100
AcDbLine
10
-482
20
-493.875
30
0
11
-482
21
-383.875
31
0
0
LINE
5
231
100
AcDbEntity
8
0
100
AcDbLine
10
-1065
20
-550
30
0
11
-963.40000000000009
21
-550
31
0
0
LINE
5
232
100
AcDbEntity
8
0
100
AcDbLine
10
-500
20
-550
30
0
11
-500
21
-498.54190475583124
31
0
0
ARC
5
233
100
AcDbEntity
8
0
100
AcDbCircle
10
-1067.3334523779154
20
-381.54154762208407
30
0
40
3.2999999999999985
210
0
220
0
230
1
100
AcDbArc
50
-134.99999999999304
51
45.000000000005585
0
LINE
5
234
100
AcDbEntity
8
0
100
AcDbLine
10
-1065
20
-276.29190475583113
30
0
11
-1065
21
-379.20809524416825
31
0
0
LINE
5
235
100
AcDbEntity
8
0
100
AcDbLine
10
-1069.6669047558307
20
-383.875
30
0
11
-1083
21
-383.875
31
0
0
LINE
5
236
100
AcDbEntity
8
0
100
AcDbLine
10
-1083
20
-271.62499999999994
30
0
11
-1069.6669047558314
21
-271.62499999999994
31
0
0
ARC
5
237
100
AcDbEntity
8
0
100
AcDbCircle
10
-1067.3334523779154
20
-273.95845237791519
30
0
40
3.3000000000000234
210
0
220
0
230
1
100
AcDbArc
50
-45.000000000006978
51
135.00000000000978
0
ARC
5
238
100
AcDbEntity
8
0
100
AcDbCircle
10
-497.66654762208441
20
-273.95845237791553
30
0
40
3.2999999999999985
210
0
220
-0
230
1
100
AcDbArc
50
45.000000000000696
51
225.00000000000068
0
ARC
5
239
100
AcDbEntity
8
0
100
AcDbCircle
10
-497.66654762208441
20
-381.54154762208435
30
0
40
3.2999999999999985
210
0
220
0
230
1
100
AcDbArc
50
135
51
315
0
LINE
5
240
100
AcDbEntity
8
0
100
AcDbLine
10
-500
20
-379.20809524416876
30
0
11
-500
21
-276.29190475583118
31
0
0
LINE
5
241
100
AcDbEntity
8
0
100
AcDbLine
10
-482
20
-383.875
30
0
11
-495.33309524416882
21
-383.87499999999994
31
0
0
LINE
5
242
100
AcDbEntity
8
0
100
AcDbLine
10
-482
20
-161.62499999999994
30
0
11
-495.33309524416882
21
-161.62499999999994
31
0
0
ARC
5
243
100
AcDbEntity
8
0
100
AcDbCircle
10
-497.66654762208441
20
-159.29154762208435
30
0
40
3.3000000000000114
210
0
220
0
230
1
100
AcDbArc
50
134.99999999999932
51
315
0
LINE
5
244
100
AcDbEntity
8
0
100
AcDbLine
10
-482
20
-271.62499999999994
30
0
11
-482
21
-161.62499999999994
31
0
0
LINE
5
245
100
AcDbEntity
8
0
100
AcDbLine
10
-500
20
-156.9580952441687
30
0
11
-500
21
-105.49999999999997
31
0
0
LINE
5
246
100
AcDbEntity
8
0
100
AcDbLine
10
-495.33309524416882
20
-271.62499999999989
30
0
11
-482
21
-271.62499999999994
31
0
0
ARC
5
247
100
AcDbEntity
8
0
100
AcDbCircle
10
617.33345237791536
20
-331.54154762208407
30
0
40
3.2999999999999985
210
0
220
0
230
1
100
AcDbArc
50
134.99999999999443
51
314.99999999999159
0
ARC
5
248
100
AcDbEntity
8
0
100
AcDbCircle
10
617.33345237791525
20
-109.29154762208405
30
0
40
3.2999999999999865
210
0
220
0
230
1
100
AcDbArc
50
134.99999999998832
51
314.99999999999426
0
LINE
5
249
100
AcDbEntity
8
0
100
AcDbLine
10
615
20
300
30
0
11
572.68424164185922
21
300
31
0
0
ARC
5
250
100
AcDbEntity
8
0
100
AcDbCircle
10
617.33345237791536
20
-223.95845237791522
30
0
40
3.2999999999999985
210
0
220
-0
230
1
100
AcDbArc
50
44.999999999994763
51
225.00000000000733
0
LINE
5
251
100
AcDbEntity
8
0
100
AcDbLine
10
615
20
-500
30
0
11
615
21
-448.54190475583096
31
0
0
ARC
5
252
100
AcDbEntity
8
0
100
AcDbCircle
10
566.4502349602277
20
278.0830079208485
30
0
40
3.2999999999998701
210
0
220
0
230
1
100
AcDbArc
50
-144.9999999999975
51
35.000000000002508
0
LINE
5
253
100
AcDbEntity
8
0
100
AcDbLine
10
533.58579420805711
20
78.26168589339936
30
0
11
510.73668472052304
21
-51.322053337707132
31
0
0
ARC
5
254
100
AcDbEntity
8
0
100
AcDbCircle
10
107.66654762208439
20
-53.166547622084295
30
0
40
3.2999999999999421
210
0
220
0
230
1
100
AcDbArc
50
-135.00000000000017
51
44.9999999999986
0
LINE
5
255
100
AcDbEntity
8
0
100
AcDbLine
10
633
20
-221.62499999999994
30
0
11
633
21
-111.62499999999994
31
0
0
LINE
5
256
100
AcDbEntity
8
0
100
AcDbLine
10
105.33309524416882
20
-55.499999999999858
30
0
11
49.999999999999993
21
-55.499999999999972
31
0
0
ARC
5
257
100
AcDbEntity
8
0
100
AcDbCircle
10
47.666547622084394
20
-446.20845237791565
30
0
40
3.2999999999999985
210
0
220
0
230
1
100
AcDbArc
50
-44.999999999999851
51
134.99999999999949
0
LINE
5
258
100
AcDbEntity
8
0
100
AcDbLine
10
151.59999999999997
20
-500
30
0
11
230.51103717096561
21
-205.49999999999969
31
0
0
LINE
5
259
100
AcDbEntity
8
0
100
AcDbLine
10
220
20
-37.5
30
0
11
110
21
-37.5
31
0
0
LINE
5
260
100
AcDbEntity
8
0
100
AcDbLine
10
615.00000000000011
20
-106.95809524416796
30
0
11
615
21
300
31
0
0
ARC
5
261
100
AcDbEntity
8
0
100
AcDbCircle
10
452.33345237791571
20
-53.166547622085076
30
0
40
3.3000000000000362
210
0
220
0
230
1
100
AcDbArc
50
135.00000000000139
51
315.00000000001825
0
LINE
5
262
100
AcDbEntity
8
0
100
AcDbLine
10
220.00000000000003
20
-50.833095244168831
30
0
11
220
21
-37.5
31
0
0
LINE
5
263
100
AcDbEntity
8
0
100
AcDbLine
10
230.51103717096561
20
-205.49999999999969
30
0
11
434.48896282903519
21
-205.50000000000014
31
0
0
LINE
5
264
100
AcDbEntity
8
0
100
AcDbLine
10
110
20
-37.5
30
0
11
110.00000000000001
21
-50.833095244168788
31
0
0
LINE
5
265
100
AcDbEntity
8
0
100
AcDbLine
10
32
20
-111.62499999999994
30
0
11
32
21
-221.62499999999994
31
0
0
LINE
5
266
100
AcDbEntity
8
0
100
AcDbLine
10
516.66965416003279
20
85.983357077516587
30
0
11
529.80018972814048
21
83.66808938570685
31
0
0
LINE
5
267
100
AcDbEntity
8
0
100
AcDbLine
10
513.40000000000009
20
-500
30
0
11
615
21
-500
31
0
0
LINE
5
268
100
AcDbEntity
8
0
100
AcDbLine
10
538.48259861148676
20
132.90847703631755
30
0
11
525.35206304337919
21
135.22374472812709
31
0
0
LINE
5
269
100
AcDbEntity
8
0
100
AcDbLine
10
434.48896282903519
20
-205.50000000000014
30
0
11
513.40000000000009
21
-500
31
0
0
LINE
5
270
100
AcDbEntity
8
0
100
AcDbLine
10
340
20
-37.499999999999929
30
0
11
340
21
-50.833095244169115
31
0
0
ARC
5
271
100
AcDbEntity
8
0
100
AcDbCircle
10
337.66654762208447
20
-53.166547622084579
30
0
40
3.2999999999999292
210
0
220
0
230
1
100
AcDbArc
50
-135.00000000000804
51
44.999999999999126
0
LINE
5
272
100
AcDbEntity
8
0
100
AcDbLine
10
32
20
-443.875
30
0
11
45.333095244168788
21
-443.875
31
0
0
LINE
5
273
100
AcDbEntity
8
0
100
AcDbLine
10
450
20
-50.833095244169485
30
0
11
450
21
-37.499999999999929
31
0
0
LINE
5
274
100
AcDbEntity
8
0
100
AcDbLine
10
619.66690475583141
20
-443.875
30
0
11
633
21
-443.875
31
0
0
LINE
5
275
100
AcDbEntity
8
0
100
AcDbLine
10
45.333095244168788
20
-333.875
30
0
11
31.999999999999996
21
-333.875
31
0
0
LINE
5
276
100
AcDbEntity
8
0
100
AcDbLine
10
615
20
-329.20809524416825
30
0
11
615.00000000000011
21
-226.29190475583107
31
0
0
LINE
5
277
100
AcDbEntity
8
0
100
AcDbLine
10
572.68424164185922
20
300
30
0
11
569.15343670638117
21
279.97581016080699
31
0
0
LINE
5
278
100
AcDbEntity
8
0
100
AcDbLine
10
50
20
-500
30
0
11
151.59999999999997
21
-500
31
0
0
ARC
5
279
100
AcDbEntity
8
0
100
AcDbCircle
10
531.69299196809891
20
80.964887639553282
30
0
40
3.3000000000000007
210
0
220
0
230
1
100
AcDbArc
50
-55.000000000006047
51
125.00000000000071
0
LINE
5
280
100
AcDbEntity
8
0
100
AcDbLine
10
541.93408876261969
20
229.26508572208888
30
0
11
555.06462433072682
21
226.94981803027972
31
0
0
LINE
5
281
100
AcDbEntity
8
0
100
AcDbLine
10
525.35206304337919
20
135.22374472812709
30
0
11
516.66965416003279
21
85.983357077516587
31
0
0
LINE
5
282
100
AcDbEntity
8
0
100
AcDbLine
10
633
20
-333.875
30
0
11
619.66690475583061
21
-333.875
31
0
0
LINE
5
283
100
AcDbEntity
8
0
100
AcDbLine
10
619.66690475583118
20
-221.62499999999983
30
0
11
633
21
-221.62499999999994
31
0
0
ARC
5
284
100
AcDbEntity
8
0
100
AcDbCircle
10
222.33345237791556
20
-53.166547622084295
30
0
40
3.2999999999999039
210
0
220
0
230
1
100
AcDbArc
50
135.00000000000091
51
315.00000000000017
0
ARC
5
285
100
AcDbEntity
8
0
100
AcDbCircle
10
47.666547622084394
20
-109.29154762208434
30
0
40
3.3000000000000047
210
0
220
0
230
1
100
AcDbArc
50
-135.00000000000011
51
45.000000000000355
0
ARC
5
286
100
AcDbEntity
8
0
100
AcDbCircle
10
556.95742657068558
20
224.24661628412579
30
0
40
3.3000000000001291
210
0
220
0
230
1
100
AcDbArc
50
-54.999999999996781
51
125.00000000000202
0
LINE
5
287
100
AcDbEntity
8
0
100
AcDbLine
10
563.74703321407424
20
276.19020568089002
30
0
11
550.61649764596632
21
278.50547337269944
31
0
0
ARC
5
288
100
AcDbEntity
8
0
100
AcDbCircle
10
47.666547622084394
20
-331.54154762208435
30
0
40
3.2999999999999923
210
0
220
0
230
1
100
AcDbArc
50
-134.99999999999949
51
44.999999999999737
0
LINE
5
289
100
AcDbEntity
8
0
100
AcDbLine
10
450
20
-37.499999999999929
30
0
11
340
21
-37.499999999999929
31
0
0
ARC
5
290
100
AcDbEntity
8
0
100
AcDbCircle
10
47.666547622084394
20
-223.95845237791551
30
0
40
3.3000000000000047
210
0
220
0
230
1
100
AcDbArc
50
-45.00000000000086
51
135.00000000000026
0
LINE
5
291
100
AcDbEntity
8
0
100
AcDbLine
10
633
20
-111.62499999999994
30
0
11
619.66690475583061
21
-111.62499999999989
31
0
0
ARC
5
292
100
AcDbEntity
8
0
100
AcDbCircle
10
507.87880088803462
20
-52.972053337707194
30
0
40
3.2999999999999168
210
0
220
0
230
1
100
AcDbArc
50
-129.99999999999812
51
30.000000000002853
0
LINE
5
293
100
AcDbEntity
8
0
100
AcDbLine
10
32
20
-221.62499999999994
30
0
11
45.333095244168781
21
-221.62499999999991
31
0
0
LINE
5
294
100
AcDbEntity
8
0
100
AcDbLine
10
550.61649764596632
20
278.50547337269944
30
0
11
541.93408876261969
21
229.26508572208888
31
0
0
LINE
5
295
100
AcDbEntity
8
0
100
AcDbLine
10
335.33309524416859
20
-55.499999999999801
30
0
11
224.6669047558311
21
-55.499999999999815
31
0
0
LINE
5
296
100
AcDbEntity
8
0
100
AcDbLine
10
49.999999999999972
20
-226.29190475583115
30
0
11
50.000000000000007
21
-329.20809524416876
31
0
0
LINE
5
297
100
AcDbEntity
8
0
100
AcDbLine
10
31.999999999999996
20
-333.875
30
0
11
32
21
-443.875
31
0
0
LINE
5
298
100
AcDbEntity
8
0
100
AcDbLine
10
558.85022881064424
20
221.54341453797215
30
0
11
543.88900210379416
21
136.69408151623423
31
0
0
LINE
5
299
100
AcDbEntity
8
0
100
AcDbLine
10
633
20
-443.875
30
0
11
633
21
-333.875
31
0
0
LINE
5
300
100
AcDbEntity
8
0
100
AcDbLine
10
49.999999999999993
20
-55.499999999999972
30
0
11
49.999999999999986
21
-106.95809524416872
31
0
0
LINE
5
301
100
AcDbEntity
8
0
100
AcDbLine
10
50
20
-448.54190475583124
30
0
11
50
21
-500
31
0
0
LINE
5
302
100
AcDbEntity
8
0
100
AcDbLine
10
45.333095244168781
20
-111.62499999999994
30
0
11
32
21
-111.62499999999994
31
0
0
LINE
5
303
100
AcDbEntity
8
0
100
AcDbLine
10
505.75760177606918
20
-55.499999999999822
30
0
11
454.66690475583209
21
-55.499999999999979
31
0
0
ARC
5
304
100
AcDbEntity
8
0
100
AcDbCircle
10
617.33345237791571
20
-446.20845237791525
30
0
40
3.2999999999999985
210
0
220
-0
230
1
100
AcDbArc
50
44.999999999994408
51
225
0
ARC
5
305
100
AcDbEntity
8
0
100
AcDbCircle
10
541.18580035764035
20
134.80127927627592
30
0
40
3.2999999999999527
210
0
220
0
230
1
100
AcDbArc
50
-145.00000000000026
51
34.999999999996668
0
ENDSEC
0
SECTION
2
OBJECTS
0
DICTIONARY
5
C
100
AcDbDictionary
3
ACAD_GROUP
350
D
3
ACAD_MLINESTYLE
350
17
0
DICTIONARY
5
D
100
AcDbDictionary
0
DICTIONARY
5
1A
330
C
100
AcDbDictionary
0
DICTIONARY
5
17
100
AcDbDictionary
0
ENDSEC
0
EOF
